Auteur Sujet: convertir tab guitare en tab uke  (Lu 452 fois)

Garcymore

  • Soprano
  • Messages: 427
  • les sushis n'ont pas de sens
convertir tab guitare en tab uke
« le: 12 avril 2017 à 19:23:36 »
Salut,

Est-ce que quelqu’un aurait une astuce pour convertir une tab guitare sous forme .txt en tab ukulélé ?

en gros g ça :

    Dm |  Dm .  .                                           
e|--5--|--5--------|-----------|------------|----------|-------5--8--5----|
B|--6--|--6--------|-----------|------------|-------6--|------6-----------|
G|--7--|--7--5--5--|--5^h7--7^^^^^-------7^--------|--7--7--------------|
D|--7--|--7--------|-----------|----5/7-----|-----7----|------------------|
A|--5--|--5--------|-----------|------------|----------|------------------|
E|--5--|--5--------|-----------|------------|----------|------------------|

et je voudrai ça :
    Dm |  Dm .  .                                           
e|--0--|--0--------|-----------|------------|----------|-------0--3--0----|
B|--1--|--1--------|-----------|------------|-------1--|------1-----------|
G|--2--|--2--0--0--|--0^h2--2^^^^^-------2^--------|--2--2--------------|
D|--2--|--2--------|-----------|----0/2-----|-----2----|------------------|

Bien sûr on peut le faire à la main mais j'ai une tab très longue, je risque de faire trop d'erreurs (je me connais)...

J'imagine qu'il doit y avoir un outil quelque part mais je trouve pas.... 

Bon strum les gens :ukug:
Si tous les joueurs d'ukulélé du monde se tenaient la main, euh ...c'est con, ils pourraient plus strum !

Lotre

  • Concert
  • Messages: 1 452
Re : convertir tab guitare en tab uke
« Réponse #1 le: 13 avril 2017 à 08:34:45 »
Je ne connais pas de logiciel pour lire ces tabs .
Quelqu'un connait ?
Il y en a plusieurs pour lire d'autre type de tabs , mais celle la , je crois qu'il n'y en a pas  ???
Le ukulélé est une machine a ciseler des mélodies .

Jérôme

  • Modérateur global
  • Tenor
  • Messages: 4 649
  • du dodo dodu
    • les carnets paresseux
Re : convertir tab guitare en tab uke
« Réponse #2 le: 13 avril 2017 à 08:55:16 »
je me suis dit qu'un bricolage semi automatique genre tu fais "changer tout" les 5 en 0, les 8 en 3 etc pourrait faire la farce, mais en fait ça ne marche qu'avec une tab guitare ousqu'il n'y a pas de note sur les 4 premières cases....sans compter les parties intéressantes qui seraient malencontreusement sur les deux grosses cordes :(

donc, à part bidouille, débrouille, patience et longueur de temps, je ne vois pas de solution facile.

Lalilu !

  • Concert
  • Messages: 678
Re : convertir tab guitare en tab uke
« Réponse #3 le: 13 avril 2017 à 16:00:04 »
rho le casse tête
ça me rappelle les projets de programmation python à la fac
ça pourrait plaire à mon prof d’algorithmique de l'époque qui est un sadique notoire...

Lotre

  • Concert
  • Messages: 1 452
Re : convertir tab guitare en tab uke
« Réponse #4 le: 13 avril 2017 à 18:05:35 »
Salut,

Est-ce que quelqu’un aurait une astuce pour convertir une tab guitare sous forme .txt en tab ukulélé ?

en gros g ça :

    Dm |  Dm .  .                                           
e|--5--|--5--------|-----------|------------|----------|-------5--8--5----|
B|--6--|--6--------|-----------|------------|-------6--|------6-----------|
G|--7--|--7--5--5--|--5^h7--7^^^^^-------7^--------|--7--7--------------|
D|--7--|--7--------|-----------|----5/7-----|-----7----|------------------|
A|--5--|--5--------|-----------|------------|----------|------------------|
E|--5--|--5--------|-----------|------------|----------|------------------|

et je voudrai ça :
    Dm |  Dm .  .                                           
e|--0--|--0--------|-----------|------------|----------|-------0--3--0----|
B|--1--|--1--------|-----------|------------|-------1--|------1-----------|
G|--2--|--2--0--0--|--0^h2--2^^^^^-------2^--------|--2--2--------------|
D|--2--|--2--------|-----------|----0/2-----|-----2----|------------------|

Bien sûr on peut le faire à la main mais j'ai une tab très longue, je risque de faire trop d'erreurs (je me connais)...

J'imagine qu'il doit y avoir un outil quelque part mais je trouve pas.... 

Bon strum les gens :ukug:

A mon avis , pas besoin de changer les nombre : il suffit de les recopier tels quels .
Ça va transposer , mais ce sera juste .
Bien sur si tu dois jouer avec d' autres musiciens , ça le fera pas . :o
Le ukulélé est une machine a ciseler des mélodies .

Garcymore

  • Soprano
  • Messages: 427
  • les sushis n'ont pas de sens
Re : convertir tab guitare en tab uke
« Réponse #5 le: 16 avril 2017 à 22:37:31 »
Peut être qu'il existe un logiciel pour convertir le .txt en guitar pro et du coup convertir simplement la tab,
enfin je peux toujours espérer  :tetemur:

Citer
Je ne connais pas de logiciel pour lire ces tabs .
Quelqu'un connait ?

.txt se lit avec le bloc note windows,
pour les mac ou linux je ne sais pas
Si tous les joueurs d'ukulélé du monde se tenaient la main, euh ...c'est con, ils pourraient plus strum !

Lotre

  • Concert
  • Messages: 1 452
Re : convertir tab guitare en tab uke
« Réponse #6 le: 17 avril 2017 à 09:35:33 »
Peut être qu'il existe un logiciel pour convertir le .txt en guitar pro et du coup convertir simplement la tab,
enfin je peux toujours espérer  :tetemur:

.txt se lit avec le bloc note windows,
pour les mac ou linux je ne sais pas

Je voulais parler de logiciel qui lirait les tab txt en tant que tablatures .
Le ukulélé est une machine a ciseler des mélodies .

Rintintine

  • Soprano
  • Messages: 148
Re : convertir tab guitare en tab uke
« Réponse #7 le: 17 avril 2017 à 16:01:29 »
Tu peux faire ça dans TableEdit (même en version demo). Tu importes un fichier texte au format ASCII, tu transposes et tu vires les deux dernières cordes de la guitare. Il faut évidemment une tablature originale bien écrite (ce qui n'est pas le cas de ton exemple).

Garcymore

  • Soprano
  • Messages: 427
  • les sushis n'ont pas de sens
Re : convertir tab guitare en tab uke
« Réponse #8 le: 17 avril 2017 à 17:05:34 »
Merci pour l'info, je suis en train d'essayer en manipulant le .txt d'origine et ça a l'air assez prometteur !!!
 :chapo:
Si tous les joueurs d'ukulélé du monde se tenaient la main, euh ...c'est con, ils pourraient plus strum !

Lotre

  • Concert
  • Messages: 1 452
Re : convertir tab guitare en tab uke
« Réponse #9 le: 18 avril 2017 à 08:40:26 »
Tu peux faire ça dans TableEdit (même en version demo). Tu importes un fichier texte au format ASCII, tu transposes et tu vires les deux dernières cordes de la guitare. Il faut évidemment une tablature originale bien écrite (ce qui n'est pas le cas de ton exemple).

Cool  8)
Le ukulélé est une machine a ciseler des mélodies .

Rintintine

  • Soprano
  • Messages: 148
Re : convertir tab guitare en tab uke
« Réponse #10 le: 19 avril 2017 à 10:01:02 »
J'ai pas poussé le test très loin, il y a peut-être des bizarreries...